  0
SECTION
  2
HEADER
  9
$ACADVER
  1
AC1015
  9
$ACADMAINTVER
 70
     6
  9
$DWGCODEPAGE
  3
ANSI_1254
  9
$INSBASE
 10
0.0
 20
0.0
 30
0.0
  9
$EXTMIN
 10
0.0
 20
0.0
 30
0.0
  9
$EXTMAX
 10
279.4
 20
215.9
 30
0.0
  9
$LIMMIN
 10
0.0
 20
0.0
  9
$LIMMAX
 10
279.4
 20
215.9
  9
$ORTHOMODE
 70
     0
  9
$REGENMODE
 70
     1
  9
$FILLMODE
 70
     1
  9
$QTEXTMODE
 70
     0
  9
$MIRRTEXT
 70
     1
  9
$LTSCALE
 40
1.0
  9
$ATTMODE
 70
     1
  9
$TEXTSIZE
 40
3.5
  9
$TRACEWID
 40
1.0
  9
$TEXTSTYLE
  7
Standard
  9
$CLAYER
  8
0
  9
$CELTYPE
  6
ByLayer
  9
$CECOLOR
 62
   256
  9
$CELTSCALE
 40
1.0
  9
$DISPSILH
 70
     0
  9
$DIMSCALE
 40
1.0
  9
$DIMASZ
 40
3.5
  9
$DIMEXO
 40
1.0
  9
$DIMDLI
 40
3.75
  9
$DIMRND
 40
0.0
  9
$DIMDLE
 40
0.0
  9
$DIMEXE
 40
1.0
  9
$DIMTP
 40
0.0
  9
$DIMTM
 40
0.0
  9
$DIMTXT
 40
3.5
  9
$DIMCEN
 40
2.5
  9
$DIMTSZ
 40
0.0
  9
$DIMTOL
 70
     0
  9
$DIMLIM
 70
     0
  9
$DIMTIH
 70
     1
  9
$DIMTOH
 70
     1
  9
$DIMSE1
 70
     0
  9
$DIMSE2
 70
     0
  9
$DIMTAD
 70
     1
  9
$DIMZIN
 70
     0
  9
$DIMBLK
  1

  9
$DIMASO
 70
     1
  9
$DIMSHO
 70
     1
  9
$DIMPOST
  1

  9
$DIMAPOST
  1

  9
$DIMALT
 70
     0
  9
$DIMALTD
 70
     3
  9
$DIMALTF
 40
0.0393700787
  9
$DIMLFAC
 40
1.0
  9
$DIMTOFL
 70
     1
  9
$DIMTVP
 40
0.0
  9
$DIMTIX
 70
     0
  9
$DIMSOXD
 70
     0
  9
$DIMSAH
 70
     0
  9
$DIMBLK1
  1

  9
$DIMBLK2
  1

  9
$DIMSTYLE
  2
ISO-25
  9
$DIMCLRD
 70
     0
  9
$DIMCLRE
 70
     0
  9
$DIMCLRT
 70
     0
  9
$DIMTFAC
 40
1.0
  9
$DIMGAP
 40
1.524
  9
$DIMJUST
 70
     0
  9
$DIMSD1
 70
     0
  9
$DIMSD2
 70
     0
  9
$DIMTOLJ
 70
     0
  9
$DIMTZIN
 70
     0
  9
$DIMALTZ
 70
     0
  9
$DIMALTTZ
 70
     0
  9
$DIMUPT
 70
     0
  9
$DIMDEC
 70
     2
  9
$DIMTDEC
 70
     2
  9
$DIMALTU
 70
     2
  9
$DIMALTTD
 70
     3
  9
$DIMTXSTY
  7
Standard
  9
$DIMAUNIT
 70
     0
  9
$DIMADEC
 70
     2
  9
$DIMALTRND
 40
0.0
  9
$DIMAZIN
 70
     0
  9
$DIMDSEP
 70
    44
  9
$DIMATFIT
 70
     3
  9
$DIMFRAC
 70
     0
  9
$DIMLDRBLK
  1

  9
$DIMLUNIT
 70
     2
  9
$DIMLWD
 70
    -2
  9
$DIMLWE
 70
    -2
  9
$DIMTMOVE
 70
     0
  9
$LUNITS
 70
     2
  9
$LUPREC
 70
     2
  9
$SKETCHINC
 40
1.0
  9
$FILLETRAD
 40
10.0
  9
$AUNITS
 70
     0
  9
$AUPREC
 70
     2
  9
$MENU
  1
.
  9
$ELEVATION
 40
0.0
  9
$PELEVATION
 40
0.0
  9
$THICKNESS
 40
0.0
  9
$LIMCHECK
 70
     0
  9
$CHAMFERA
 40
0.0
  9
$CHAMFERB
 40
0.0
  9
$CHAMFERC
 40
0.0
  9
$CHAMFERD
 40
0.0
  9
$SKPOLY
 70
     0
  9
$TDCREATE
 40
2458985.651177106
  9
$TDUCREATE
 40
2458985.526177106
  9
$TDUPDATE
 40
2458985.651177431
  9
$TDUUPDATE
 40
2458985.526177431
  9
$TDINDWG
 40
0.0000000116
  9
$TDUSRTIMER
 40
0.0000000116
  9
$USRTIMER
 70
     1
  9
$ANGBASE
 50
0.0
  9
$ANGDIR
 70
     0
  9
$PDMODE
 70
     0
  9
$PDSIZE
 40
-1.0
  9
$PLINEWID
 40
0.0
  9
$SPLFRAME
 70
     0
  9
$SPLINETYPE
 70
     6
  9
$SPLINESEGS
 70
     8
  9
$HANDSEED
  5
BF
  9
$SURFTAB1
 70
     6
  9
$SURFTAB2
 70
     6
  9
$SURFTYPE
 70
     6
  9
$SURFU
 70
     6
  9
$SURFV
 70
     6
  9
$UCSBASE
  2

  9
$UCSNAME
  2

  9
$UCSORG
 10
0.0
 20
0.0
 30
0.0
  9
$UCSXDIR
 10
1.0
 20
0.0
 30
0.0
  9
$UCSYDIR
 10
0.0
 20
1.0
 30
0.0
  9
$UCSORTHOREF
  2

  9
$UCSORTHOVIEW
 70
     0
  9
$UCSORGTOP
 10
0.0
 20
0.0
 30
0.0
  9
$UCSORGBOTTOM
 10
0.0
 20
0.0
 30
0.0
  9
$UCSORGLEFT
 10
0.0
 20
0.0
 30
0.0
  9
$UCSORGRIGHT
 10
0.0
 20
0.0
 30
0.0
  9
$UCSORGFRONT
 10
0.0
 20
0.0
 30
0.0
  9
$UCSORGBACK
 10
0.0
 20
0.0
 30
0.0
  9
$PUCSBASE
  2

  9
$PUCSNAME
  2

  9
$PUCSORG
 10
0.0
 20
0.0
 30
0.0
  9
$PUCSXDIR
 10
1.0
 20
0.0
 30
0.0
  9
$PUCSYDIR
 10
0.0
 20
1.0
 30
0.0
  9
$PUCSORTHOREF
  2

  9
$PUCSORTHOVIEW
 70
     0
  9
$PUCSORGTOP
 10
0.0
 20
0.0
 30
0.0
  9
$PUCSORGBOTTOM
 10
0.0
 20
0.0
 30
0.0
  9
$PUCSORGLEFT
 10
0.0
 20
0.0
 30
0.0
  9
$PUCSORGRIGHT
 10
0.0
 20
0.0
 30
0.0
  9
$PUCSORGFRONT
 10
0.0
 20
0.0
 30
0.0
  9
$PUCSORGBACK
 10
0.0
 20
0.0
 30
0.0
  9
$USERI1
 70
     0
  9
$USERI2
 70
     0
  9
$USERI3
 70
     0
  9
$USERI4
 70
     0
  9
$USERI5
 70
     0
  9
$USERR1
 40
0.0
  9
$USERR2
 40
0.0
  9
$USERR3
 40
0.0
  9
$USERR4
 40
0.0
  9
$USERR5
 40
0.0
  9
$WORLDVIEW
 70
     1
  9
$SHADEDGE
 70
     3
  9
$SHADEDIF
 70
    70
  9
$TILEMODE
 70
     1
  9
$MAXACTVP
 70
    64
  9
$PINSBASE
 10
0.0
 20
0.0
 30
0.0
  9
$PLIMCHECK
 70
     0
  9
$PEXTMIN
 10
1.0000000000E+20
 20
1.0000000000E+20
 30
1.0000000000E+20
  9
$PEXTMAX
 10
-1.0000000000E+20
 20
-1.0000000000E+20
 30
-1.0000000000E+20
  9
$PLIMMIN
 10
0.0
 20
0.0
  9
$PLIMMAX
 10
420.0
 20
297.0
  9
$UNITMODE
 70
     0
  9
$VISRETAIN
 70
     1
  9
$PLINEGEN
 70
     0
  9
$PSLTSCALE
 70
     1
  9
$TREEDEPTH
 70
  3020
  9
$CMLSTYLE
  2
Standard
  9
$CMLJUST
 70
     0
  9
$CMLSCALE
 40
20.0
  9
$PROXYGRAPHICS
 70
     1
  9
$MEASUREMENT
 70
     1
  9
$CELWEIGHT
370
    -1
  9
$ENDCAPS
280
     0
  9
$JOINSTYLE
280
     0
  9
$LWDISPLAY
290
     1
  9
$INSUNITS
 70
     4
  9
$HYPERLINKBASE
  1

  9
$STYLESHEET
  1

  9
$XEDIT
290
     1
  9
$CEPSNTYPE
380
     0
  9
$PSTYLEMODE
290
     1
  9
$FINGERPRINTGUID
  2
{8e62a1c8-b2ba-48db-a9ac-e9c9f46dedbd}
  9
$VERSIONGUID
  2
{FAEB1C32-E019-11D5-929B-00C0DF256EC4}
  9
$EXTNAMES
290
     1
  9
$PSVPSCALE
 40
0.0
  9
$OLESTARTUP
290
     0
  0
ENDSEC
  0
SECTION
  2
CLASSES
  0
CLASS
  1
ACDBDICTIONARYWDFLT
  2
AcDbDictionaryWithDefault
  3
ObjectDBX Classes
 90
        0
280
     0
281
     0
  0
CLASS
  1
VISUALSTYLE
  2
AcDbVisualStyle
  3
ObjectDBX Classes
 90
     4095
280
     0
281
     0
  0
CLASS
  1
MATERIAL
  2
AcDbMaterial
  3
ObjectDBX Classes
 90
     1153
280
     0
281
     0
  0
CLASS
  1
SCALE
  2
AcDbScale
  3
ObjectDBX Classes
 90
     1153
280
     0
281
     0
  0
CLASS
  1
TABLESTYLE
  2
AcDbTableStyle
  3
ObjectDBX Classes
 90
     4095
280
     0
281
     0
  0
CLASS
  1
MLEADERSTYLE
  2
AcDbMLeaderStyle
  3
ACDB_MLEADERSTYLE_CLASS
 90
     4095
280
     0
281
     0
  0
CLASS
  1
SUN
  2
AcDbSun
  3
SCENEOE
 90
     1153
280
     0
281
     0
  0
CLASS
  1
ACDBPLACEHOLDER
  2
AcDbPlaceHolder
  3
ObjectDBX Classes
 90
        0
280
     0
281
     0
  0
CLASS
  1
LAYOUT
  2
AcDbLayout
  3
ObjectDBX Classes
 90
        0
280
     0
281
     0
  0
ENDSEC
  0
SECTION
  2
TABLES
  0
TABLE
  2
VPORT
  5
8
330
0
100
AcDbSymbolTable
 70
     1
  0
VPORT
  5
29
330
8
100
AcDbSymbolTableRecord
100
AcDbViewportTableRecord
  2
*Active
 70
     0
 10
0.0
 20
0.0
 11
1.0
 21
1.0
 12
139.7
 22
107.95
 13
0.0
 23
0.0
 14
10.0
 24
10.0
 15
10.0
 25
10.0
 16
0.0
 26
0.0
 36
1.0
 17
0.0
 27
0.0
 37
0.0
 40
215.9
 41
1.2941176471
 42
50.0
 43
0.0
 44
0.0
 50
0.0
 51
0.0
 71
     0
 72
  2000
 73
     1
 74
     3
 75
     0
 76
     0
 77
     0
 78
     0
281
     0
 65
     1
110
0.0
120
0.0
130
0.0
111
1.0
121
0.0
131
0.0
112
0.0
122
1.0
132
0.0
 79
     0
146
0.0
  0
ENDTAB
  0
TABLE
  2
LTYPE
  5
5
330
0
100
AcDbSymbolTable
 70
     6
  0
LTYPE
  5
14
330
5
100
AcDbSymbolTableRecord
100
AcDbLinetypeTableRecord
  2
ByBlock
 70
     0
  3

 72
    65
 73
     0
 40
0.0
  0
LTYPE
  5
15
330
5
100
AcDbSymbolTableRecord
100
AcDbLinetypeTableRecord
  2
ByLayer
 70
     0
  3

 72
    65
 73
     0
 40
0.0
  0
LTYPE
  5
16
330
5
100
AcDbSymbolTableRecord
100
AcDbLinetypeTableRecord
  2
Continuous
 70
     0
  3
Solid line
 72
    65
 73
     0
 40
0.0
  0
LTYPE
  5
6E
330
5
100
AcDbSymbolTableRecord
100
AcDbLinetypeTableRecord
  2
HIDDEN
 70
     0
  3
Hidden __ __ __ __ __ __ __ __ __ __ __ __ __ __
 72
    65
 73
     2
 40
1.905
 49
1.27
 74
     0
 49
-0.635
 74
     0
  0
LTYPE
  5
6F
330
5
100
AcDbSymbolTableRecord
100
AcDbLinetypeTableRecord
  2
PHANTOM
 70
     0
  3
Phantom ______  __  __  ______  __  __  ______
 72
    65
 73
     6
 40
12.7
 49
6.35
 74
     0
 49
-1.27
 74
     0
 49
1.27
 74
     0
 49
-1.27
 74
     0
 49
1.27
 74
     0
 49
-1.27
 74
     0
  0
LTYPE
  5
70
330
5
100
AcDbSymbolTableRecord
100
AcDbLinetypeTableRecord
  2
CENTER
 70
     0
  3
Center ____ _ ____ _ ____ _ ____ _ ____ _ ____
 72
    65
 73
     4
 40
10.16
 49
6.35
 74
     0
 49
-1.27
 74
     0
 49
1.27
 74
     0
 49
-1.27
 74
     0
  0
LTYPE
  5
71
330
5
100
AcDbSymbolTableRecord
100
AcDbLinetypeTableRecord
  2
CENTERX2
 70
     0
  3
Center (2x) ________  __  ________  __  _____
 72
    65
 73
     4
 40
20.32
 49
12.7
 74
     0
 49
-2.54
 74
     0
 49
2.54
 74
     0
 49
-2.54
 74
     0
  0
LTYPE
  5
72
330
5
100
AcDbSymbolTableRecord
100
AcDbLinetypeTableRecord
  2
DOT2
 70
     0
  3
Dot (.5x) ........................................
 72
    65
 73
     2
 40
0.635
 49
0.0
 74
     0
 49
-0.635
 74
     0
  0
ENDTAB
  0
TABLE
  2
LAYER
  5
2
330
0
100
AcDbSymbolTable
 70
    17
  0
LAYER
  5
10
330
2
100
AcDbSymbolTableRecord
100
AcDbLayerTableRecord
  2
0
 70
     0
 62
     7
  6
Continuous
370
    -3
390
F
  0
LAYER
  5
73
330
2
100
AcDbSymbolTableRecord
100
AcDbLayerTableRecord
  2
FORMAT
 70
     0
 62
     7
  6
Continuous
370
    -3
390
F
  0
LAYER
  5
74
330
2
100
AcDbSymbolTableRecord
100
AcDbLayerTableRecord
  2
YARDIMCI_GEOMETRI
 70
     0
 62
    -6
  6
Continuous
290
     0
370
    -3
390
F
  0
LAYER
  5
75
330
2
100
AcDbSymbolTableRecord
100
AcDbLayerTableRecord
  2
SAYFA_CERCEVESI
 70
     0
 62
     7
  6
Continuous
370
    25
390
F
  0
LAYER
  5
76
330
2
100
AcDbSymbolTableRecord
100
AcDbLayerTableRecord
  2
ANTET
 70
     0
 62
     7
  6
Continuous
370
    -3
390
F
  0
LAYER
  5
77
330
2
100
AcDbSymbolTableRecord
100
AcDbLayerTableRecord
  2
OLCU
 70
     0
 62
   150
  6
Continuous
370
    -3
390
F
  0
LAYER
  5
78
330
2
100
AcDbSymbolTableRecord
100
AcDbLayerTableRecord
  2
METIN
 70
     0
 62
    96
  6
Continuous
370
    -3
390
F
  0
LAYER
  5
79
330
2
100
AcDbSymbolTableRecord
100
AcDbLayerTableRecord
  2
BALON
 70
     0
 62
     5
  6
Continuous
370
    -3
390
F
  0
LAYER
  5
7A
330
2
100
AcDbSymbolTableRecord
100
AcDbLayerTableRecord
  2
VURGU
 70
     0
 62
     7
  6
Continuous
370
    -3
390
F
  0
LAYER
  5
7B
330
2
100
AcDbSymbolTableRecord
100
AcDbLayerTableRecord
  2
SILIK
 70
     0
 62
     7
  6
Continuous
370
    -3
390
F
  0
LAYER
  5
7C
330
2
100
AcDbSymbolTableRecord
100
AcDbLayerTableRecord
  2
MODEL
 70
     0
 62
     7
  6
Continuous
370
    -3
390
F
  0
LAYER
  5
7D
330
2
100
AcDbSymbolTableRecord
100
AcDbLayerTableRecord
  2
DETAYLANDıRMA
 70
     0
 62
   190
  6
Continuous
370
    -3
390
F
  0
LAYER
  5
7E
330
2
100
AcDbSymbolTableRecord
100
AcDbLayerTableRecord
  2
TOLERANS
 70
     0
 62
   230
  6
Continuous
370
    -3
390
F
  0
LAYER
  5
7F
330
2
100
AcDbSymbolTableRecord
100
AcDbLayerTableRecord
  2
MERKEZ_CIZGILERI
 70
     0
 62
    30
  6
Continuous
370
    -3
390
F
  0
LAYER
  5
80
330
2
100
AcDbSymbolTableRecord
100
AcDbLayerTableRecord
  2
KESIT-DETAY_CIZGILERI
 70
     0
 62
     7
  6
Continuous
370
    -3
390
F
  0
LAYER
  5
81
330
2
100
AcDbSymbolTableRecord
100
AcDbLayerTableRecord
  2
\U+041E\U+0421\U+0415\U+0412\U+042B\U+0415
 70
     0
 62
     7
  6
Continuous
370
    -3
390
F
  0
LAYER
  5
82
330
2
100
AcDbSymbolTableRecord
100
AcDbLayerTableRecord
  2
\U+0412\U+041E\U+0414\U+042F\U+041D\U+042B\U+0415_\U+0417\U+041D\U+0410\U+041A\U+0418
 70
     0
 62
    11
  6
Continuous
370
    -3
390
F
  0
ENDTAB
  0
TABLE
  2
STYLE
  5
3
330
0
100
AcDbSymbolTable
 70
     1
  0
STYLE
  5
11
330
3
100
AcDbSymbolTableRecord
100
AcDbTextStyleTableRecord
  2
Standard
 70
     0
 40
0.0
 41
1.0
 50
0.0
 71
     0
 42
3.5
  3
txt
  4

  0
ENDTAB
  0
TABLE
  2
VIEW
  5
6
330
0
100
AcDbSymbolTable
 70
     0
  0
ENDTAB
  0
TABLE
  2
UCS
  5
7
330
0
100
AcDbSymbolTable
 70
     0
  0
ENDTAB
  0
TABLE
  2
APPID
  5
9
330
0
100
AcDbSymbolTable
 70
     1
  0
APPID
  5
12
330
9
100
AcDbSymbolTableRecord
100
AcDbRegAppTableRecord
  2
ACAD
 70
     0
  0
ENDTAB
  0
TABLE
  2
DIMSTYLE
  5
A
330
0
100
AcDbSymbolTable
 70
     1
100
AcDbDimStyleTable
  0
DIMSTYLE
105
27
330
A
100
AcDbSymbolTableRecord
100
AcDbDimStyleTableRecord
  2
ISO-25
 70
     0
 41
2.5
 42
0.625
 43
3.75
 44
1.25
 73
     0
 74
     0
 77
     1
 78
     8
140
2.5
141
2.5
143
0.0393700787
147
0.625
171
     3
172
     1
178
     0
271
     2
272
     2
274
     3
278
    44
283
     0
284
     8
340
11
  0
ENDTAB
  0
TABLE
  2
BLOCK_RECORD
  5
1
330
0
100
AcDbSymbolTable
 70
     1
  0
BLOCK_RECORD
  5
1F
330
1
100
AcDbSymbolTableRecord
100
AcDbBlockTableRecord
  2
*Model_Space
340
22
  0
BLOCK_RECORD
  5
1B
330
1
100
AcDbSymbolTableRecord
100
AcDbBlockTableRecord
  2
*Paper_Space
340
1E
  0
BLOCK_RECORD
  5
23
330
1
100
AcDbSymbolTableRecord
100
AcDbBlockTableRecord
  2
*Paper_Space0
340
26
  0
ENDTAB
  0
ENDSEC
  0
SECTION
  2
BLOCKS
  0
BLOCK
  5
20
330
1F
100
AcDbEntity
  8
0
100
AcDbBlockBegin
  2
*Model_Space
 70
     0
 10
0.0
 20
0.0
 30
0.0
  3
*Model_Space
  1

  0
ENDBLK
  5
21
330
1F
100
AcDbEntity
  8
0
100
AcDbBlockEnd
  0
BLOCK
  5
1C
330
1B
100
AcDbEntity
 67
     1
  8
0
100
AcDbBlockBegin
  2
*Paper_Space
 70
     0
 10
0.0
 20
0.0
 30
0.0
  3
*Paper_Space
  1

  0
ENDBLK
  5
1D
330
1B
100
AcDbEntity
 67
     1
  8
0
100
AcDbBlockEnd
  0
BLOCK
  5
24
330
23
100
AcDbEntity
  8
0
100
AcDbBlockBegin
  2
*Paper_Space0
 70
     0
 10
0.0
 20
0.0
 30
0.0
  3
*Paper_Space0
  1

  0
ENDBLK
  5
25
330
23
100
AcDbEntity
  8
0
100
AcDbBlockEnd
  0
ENDSEC
  0
SECTION
  2
ENTITIES
  0
CIRCLE
  5
83
330
1F
100
AcDbEntity
  8
0
  6
Continuous
 62
     7
370
    25
100
AcDbCircle
 10
137.2147875236
 20
108.5096877916
 30
0.0
 40
79.99999999999997
  0
CIRCLE
  5
84
330
1F
100
AcDbEntity
  8
0
  6
Continuous
 62
     7
370
    25
100
AcDbCircle
 10
137.2147875236
 20
108.5096877916
 30
0.0
 40
70.49999999999999
  0
CIRCLE
  5
85
330
1F
100
AcDbEntity
  8
0
  6
Continuous
 62
     7
370
    25
100
AcDbCircle
 10
137.2147875236
 20
108.5096877916
 30
0.0
 40
87.49999999999999
  0
CIRCLE
  5
86
330
1F
100
AcDbEntity
  8
0
  6
Continuous
 62
     7
370
    25
100
AcDbCircle
 10
137.2147875236
 20
108.5096877916
 30
0.0
 40
106.0
  0
LINE
  5
87
330
1F
100
AcDbEntity
  8
0
  6
Continuous
 62
     7
370
    25
100
AcDbLine
 10
243.2147875236
 20
264.9845342022
 30
0.0
 11
243.2147875236
 21
282.9845342022
 31
0.0
  0
LINE
  5
88
330
1F
100
AcDbEntity
  8
0
  6
Continuous
 62
     7
370
    25
100
AcDbLine
 10
31.2147875236
 20
282.9845342022
 30
0.0
 11
31.2147875236
 21
264.9845342022
 31
0.0
  0
LINE
  5
89
330
1F
100
AcDbEntity
  8
0
  6
Continuous
 62
     7
370
    25
100
AcDbLine
 10
224.7147875236
 20
282.9845342022
 30
0.0
 11
217.2147875236
 21
302.9845342022
 31
0.0
  0
LINE
  5
8A
330
1F
100
AcDbEntity
  8
0
  6
Continuous
 62
     7
370
    25
100
AcDbLine
 10
57.2147875236
 20
302.9845342022
 30
0.0
 11
49.7147875236
 21
282.9845342022
 31
0.0
  0
LINE
  5
8B
330
1F
100
AcDbEntity
  8
0
  6
Continuous
 62
     7
370
    25
100
AcDbLine
 10
217.2147875236
 20
302.9845342022
 30
0.0
 11
217.2147875236
 21
449.9845342022
 31
0.0
  0
LINE
  5
8C
330
1F
100
AcDbEntity
  8
0
  6
Continuous
 62
     7
370
    25
100
AcDbLine
 10
57.2147875236
 20
449.9845342022
 30
0.0
 11
57.2147875236
 21
302.9845342022
 31
0.0
  0
LINE
  5
8D
330
1F
100
AcDbEntity
  8
0
  6
Continuous
 62
     7
370
    25
100
AcDbLine
 10
243.2147875236
 20
264.9845342022
 30
0.0
 11
31.2147875236
 21
264.9845342022
 31
0.0
  0
LINE
  5
8E
330
1F
100
AcDbEntity
  8
0
  6
Continuous
 62
     7
370
    25
100
AcDbLine
 10
243.2147875236
 20
282.9845342022
 30
0.0
 11
31.2147875236
 21
282.9845342022
 31
0.0
  0
LINE
  5
8F
330
1F
100
AcDbEntity
  8
0
  6
Continuous
 62
     7
370
    25
100
AcDbLine
 10
217.2147875236
 20
302.9845342022
 30
0.0
 11
57.2147875236
 21
302.9845342022
 31
0.0
  0
LINE
  5
90
330
1F
100
AcDbEntity
  8
0
  6
Continuous
 62
     7
370
    25
100
AcDbLine
 10
217.2147875236
 20
449.9845342022
 30
0.0
 11
57.2147875236
 21
449.9845342022
 31
0.0
  0
LINE
  5
91
330
1F
100
AcDbEntity
  8
0
  6
Continuous
 62
     7
370
    25
100
AcDbLine
 10
-28.2835958831
 20
214.5096877916
 30
0.0
 11
-46.2835958831
 21
214.5096877916
 31
0.0
  0
LINE
  5
92
330
1F
100
AcDbEntity
  8
0
  6
Continuous
 62
     7
370
    25
100
AcDbLine
 10
-46.2835958831
 20
2.5096877916
 30
0.0
 11
-28.2835958831
 21
2.5096877916
 31
0.0
  0
LINE
  5
93
330
1F
100
AcDbEntity
  8
0
  6
Continuous
 62
     7
370
    25
100
AcDbLine
 10
-46.2835958831
 20
196.0096877916
 30
0.0
 11
-66.2835958831
 21
188.5096877916
 31
0.0
  0
LINE
  5
94
330
1F
100
AcDbEntity
  8
0
  6
Continuous
 62
     7
370
    25
100
AcDbLine
 10
-66.2835958831
 20
28.5096877916
 30
0.0
 11
-46.2835958831
 21
21.0096877916
 31
0.0
  0
LINE
  5
95
330
1F
100
AcDbEntity
  8
0
  6
Continuous
 62
     7
370
    25
100
AcDbLine
 10
-66.2835958831
 20
188.5096877916
 30
0.0
 11
-213.2835958831
 21
188.5096877916
 31
0.0
  0
LINE
  5
96
330
1F
100
AcDbEntity
  8
0
  6
Continuous
 62
     7
370
    25
100
AcDbLine
 10
-213.2835958831
 20
28.5096877916
 30
0.0
 11
-66.2835958831
 21
28.5096877916
 31
0.0
  0
LINE
  5
97
330
1F
100
AcDbEntity
  8
0
  6
Continuous
 62
     7
370
    25
100
AcDbLine
 10
-28.2835958831
 20
214.5096877916
 30
0.0
 11
-28.2835958831
 21
2.5096877916
 31
0.0
  0
LINE
  5
98
330
1F
100
AcDbEntity
  8
0
  6
Continuous
 62
     7
370
    25
100
AcDbLine
 10
-46.2835958831
 20
214.5096877916
 30
0.0
 11
-46.2835958831
 21
2.5096877916
 31
0.0
  0
LINE
  5
99
330
1F
100
AcDbEntity
  8
0
  6
Continuous
 62
     7
370
    25
100
AcDbLine
 10
-66.2835958831
 20
188.5096877916
 30
0.0
 11
-66.2835958831
 21
28.5096877916
 31
0.0
  0
LINE
  5
9A
330
1F
100
AcDbEntity
  8
0
  6
Continuous
 62
     7
370
    25
100
AcDbLine
 10
-213.2835958831
 20
188.5096877916
 30
0.0
 11
-213.2835958831
 21
28.5096877916
 31
0.0
  0
LINE
  5
9B
330
1F
100
AcDbEntity
  8
0
  6
Continuous
 62
     7
370
    25
100
AcDbLine
 10
31.2147875236
 20
-40.807510254
 30
0.0
 11
31.2147875236
 21
-58.807510254
 31
0.0
  0
LINE
  5
9C
330
1F
100
AcDbEntity
  8
0
  6
Continuous
 62
     7
370
    25
100
AcDbLine
 10
243.2147875236
 20
-58.807510254
 30
0.0
 11
243.2147875236
 21
-40.807510254
 31
0.0
  0
LINE
  5
9D
330
1F
100
AcDbEntity
  8
0
  6
Continuous
 62
     7
370
    25
100
AcDbLine
 10
49.7147875236
 20
-58.807510254
 30
0.0
 11
57.2147875236
 21
-78.807510254
 31
0.0
  0
LINE
  5
9E
330
1F
100
AcDbEntity
  8
0
  6
Continuous
 62
     7
370
    25
100
AcDbLine
 10
217.2147875236
 20
-78.807510254
 30
0.0
 11
224.7147875236
 21
-58.807510254
 31
0.0
  0
LINE
  5
9F
330
1F
100
AcDbEntity
  8
0
  6
Continuous
 62
     7
370
    25
100
AcDbLine
 10
57.2147875236
 20
-78.807510254
 30
0.0
 11
57.2147875236
 21
-225.807510254
 31
0.0
  0
LINE
  5
A0
330
1F
100
AcDbEntity
  8
0
  6
Continuous
 62
     7
370
    25
100
AcDbLine
 10
217.2147875236
 20
-225.807510254
 30
0.0
 11
217.2147875236
 21
-78.807510254
 31
0.0
  0
LINE
  5
A1
330
1F
100
AcDbEntity
  8
0
  6
Continuous
 62
     7
370
    25
100
AcDbLine
 10
31.2147875236
 20
-40.807510254
 30
0.0
 11
243.2147875236
 21
-40.807510254
 31
0.0
  0
LINE
  5
A2
330
1F
100
AcDbEntity
  8
0
  6
Continuous
 62
     7
370
    25
100
AcDbLine
 10
31.2147875236
 20
-58.807510254
 30
0.0
 11
243.2147875236
 21
-58.807510254
 31
0.0
  0
LINE
  5
A3
330
1F
100
AcDbEntity
  8
0
  6
Continuous
 62
     7
370
    25
100
AcDbLine
 10
57.2147875236
 20
-78.807510254
 30
0.0
 11
217.2147875236
 21
-78.807510254
 31
0.0
  0
LINE
  5
A4
330
1F
100
AcDbEntity
  8
0
  6
Continuous
 62
     7
370
    25
100
AcDbLine
 10
57.2147875236
 20
-225.807510254
 30
0.0
 11
217.2147875236
 21
-225.807510254
 31
0.0
  0
LINE
  5
A5
330
1F
100
AcDbEntity
  8
0
  6
Continuous
 62
     7
370
    25
100
AcDbLine
 10
314.460207869
 20
2.5096877916
 30
0.0
 11
332.460207869
 21
2.5096877916
 31
0.0
  0
LINE
  5
A6
330
1F
100
AcDbEntity
  8
0
  6
Continuous
 62
     7
370
    25
100
AcDbLine
 10
332.460207869
 20
214.5096877916
 30
0.0
 11
314.460207869
 21
214.5096877916
 31
0.0
  0
LINE
  5
A7
330
1F
100
AcDbEntity
  8
0
  6
Continuous
 62
     7
370
    25
100
AcDbLine
 10
332.460207869
 20
21.0096877916
 30
0.0
 11
352.460207869
 21
28.5096877916
 31
0.0
  0
LINE
  5
A8
330
1F
100
AcDbEntity
  8
0
  6
Continuous
 62
     7
370
    25
100
AcDbLine
 10
352.460207869
 20
188.5096877916
 30
0.0
 11
332.460207869
 21
196.0096877916
 31
0.0
  0
LINE
  5
A9
330
1F
100
AcDbEntity
  8
0
  6
Continuous
 62
     7
370
    25
100
AcDbLine
 10
352.460207869
 20
28.5096877916
 30
0.0
 11
499.460207869
 21
28.5096877916
 31
0.0
  0
LINE
  5
AA
330
1F
100
AcDbEntity
  8
0
  6
Continuous
 62
     7
370
    25
100
AcDbLine
 10
499.460207869
 20
188.5096877916
 30
0.0
 11
352.460207869
 21
188.5096877916
 31
0.0
  0
LINE
  5
AB
330
1F
100
AcDbEntity
  8
0
  6
Continuous
 62
     7
370
    25
100
AcDbLine
 10
314.460207869
 20
108.5096877916
 30
0.0
 11
314.460207869
 21
214.5096877916
 31
0.0
  0
LINE
  5
AC
330
1F
100
AcDbEntity
  8
0
  6
Continuous
 62
     7
370
    25
100
AcDbLine
 10
314.460207869
 20
2.5096877916
 30
0.0
 11
314.460207869
 21
108.5096877916
 31
0.0
  0
LINE
  5
AD
330
1F
100
AcDbEntity
  8
0
  6
Continuous
 62
     7
370
    25
100
AcDbLine
 10
332.460207869
 20
108.5096877916
 30
0.0
 11
332.460207869
 21
214.5096877916
 31
0.0
  0
LINE
  5
AE
330
1F
100
AcDbEntity
  8
0
  6
Continuous
 62
     7
370
    25
100
AcDbLine
 10
332.460207869
 20
2.5096877916
 30
0.0
 11
332.460207869
 21
108.5096877916
 31
0.0
  0
LINE
  5
AF
330
1F
100
AcDbEntity
  8
0
  6
Continuous
 62
     7
370
    25
100
AcDbLine
 10
352.460207869
 20
108.5096877916
 30
0.0
 11
352.460207869
 21
188.5096877916
 31
0.0
  0
LINE
  5
B0
330
1F
100
AcDbEntity
  8
0
  6
Continuous
 62
     7
370
    25
100
AcDbLine
 10
352.460207869
 20
28.5096877916
 30
0.0
 11
352.460207869
 21
108.5096877916
 31
0.0
  0
LINE
  5
B1
330
1F
100
AcDbEntity
  8
0
  6
Continuous
 62
     7
370
    25
100
AcDbLine
 10
499.460207869
 20
108.5096877916
 30
0.0
 11
499.460207869
 21
188.5096877916
 31
0.0
  0
LINE
  5
B2
330
1F
100
AcDbEntity
  8
0
  6
Continuous
 62
     7
370
    25
100
AcDbLine
 10
499.460207869
 20
28.5096877916
 30
0.0
 11
499.460207869
 21
108.5096877916
 31
0.0
  0
LINE
  5
B3
330
1F
100
AcDbEntity
  8
0
  6
Continuous
 62
     7
370
    25
100
AcDbLine
 10
457.9081059909
 20
-94.7574513408
 30
0.0
 11
353.9634091565
 21
-34.7514551218
 31
0.0
  0
LINE
  5
B4
330
1F
100
AcDbEntity
  8
0
  6
Continuous
 62
     7
370
    25
100
AcDbLine
 10
273.9699105456
 20
-173.3192731027
 30
0.0
 11
377.91460738
 21
-233.3252693217
 31
0.0
  0
LINE
  5
B5
330
1F
100
AcDbEntity
  8
0
  6
Continuous
 62
     7
370
    25
100
AcDbLine
 10
497.7771072003
 20
-87.7519350435
 30
0.0
 11
485.0491851389
 21
-80.4042620371
 31
0.0
  0
LINE
  5
B6
330
1F
100
AcDbEntity
  8
0
  6
Continuous
 62
     7
370
    25
100
AcDbLine
 10
379.0577994795
 20
-264.0066208618
 30
0.0
 11
391.7857215408
 21
-271.3542938682
 31
0.0
  0
LINE
  5
B7
330
1F
100
AcDbEntity
  8
0
  6
Continuous
 62
     7
370
    25
100
AcDbLine
 10
462.6308317274
 20
-92.441096587
 30
0.0
 11
452.5072602611
 21
-91.6396094661
 31
0.0
  0
LINE
  5
B8
330
1F
100
AcDbEntity
  8
0
  6
Continuous
 62
     7
370
    25
100
AcDbLine
 10
372.5137616502
 20
-230.207427447
 30
0.0
 11
378.2704406653
 21
-238.5734137939
 31
0.0
  0
LWPOLYLINE
  5
B9
330
1F
100
AcDbEntity
  8
0
  6
Continuous
 62
     7
370
    25
100
AcDbPolyline
 90
      115
 70
   128
 43
0.0
 10
257.3981173561
 20
-136.6916885852
 10
257.4840157583
 20
-133.0435881278
 10
257.7414500942
 20
-129.3073906476
 10
258.1696385442
 20
-125.4944428533
 10
258.767280714
 20
-121.6163245422
 10
259.532561584
 20
-117.6848134321
 10
260.4631570215
 20
-113.7118493931
 10
261.5562408385
 20
-109.7094981862
 10
262.8084933755
 20
-105.6899148207
 10
264.2161115827
 20
-101.665306639
 10
265.7748205699
 20
-97.647896244
 10
267.4798865891
 20
-93.649884379
 10
269.3261314108
 20
-89.6834128746
 10
271.3079480502
 20
-85.7605277744
 10
273.4193177952
 20
-81.8931427516
 10
275.6538284855
 20
-78.0930029272
 10
278.0046939854
 20
-74.3716492012
 10
280.4647747937
 20
-70.7403832023
 10
283.0265997258
 20
-67.2102329663
 10
285.6823886036
 20
-63.7919194431
 10
288.4240758836
 20
-60.4958239388
 10
291.2433351515
 20
-57.331956587
 10
294.1316044098
 20
-54.3099259489
 10
297.0801120795
 20
-51.4389098321
 10
300.0799036398
 20
-48.7276274183
 10
303.1218688223
 20
-46.1843127831
 10
306.1967692788
 20
-43.8166898894
 10
309.2952666375
 20
-41.6319491302
 10
312.4079508639
 20
-39.6367254912
 10
315.5253688382
 20
-37.8370784012
 10
318.6380530646
 20
-36.2384733292
 10
321.7365504233
 20
-34.8457651862
 10
324.8114508797
 20
-33.6631835811
 10
327.8534160622
 20
-32.6943199754
 10
330.8532076225
 20
-31.942116776
 10
333.8017152923
 20
-31.4088583993
 10
336.6899845505
 20
-31.0961643335
 10
339.5092438185
 20
-31.0049842201
 10
342.2509310985
 20
-31.1355949702
 10
344.9067199763
 20
-31.4875999232
 10
347.4685449084
 20
-32.0599300517
 10
349.9286257167
 20
-32.8508472078
 10
352.2794912166
 20
-33.8579494022
 10
354.5140019068
 20
-35.0781780985
 10
356.6253716519
 20
-36.5078275023
 10
358.6071882913
 20
-38.1425558155
 10
360.453433113
 20
-39.9773984218
 10
362.1584991322
 20
-42.0067829645
 10
363.7172081193
 20
-44.2245462694
 10
365.1248263265
 20
-46.6239530624
 10
366.3770788636
 20
-49.1977164238
 10
367.4701626806
 20
-51.938019919
 10
368.400758118
 20
-54.8365413361
 10
369.1660389881
 20
-57.8844779611
 10
369.7636811579
 20
-61.0725733104
 10
370.1918696079
 20
-64.3911452434
 10
370.4493039438
 20
-67.8301153661
 10
370.535202346
 20
-71.3790396394
 10
370.4493039438
 20
-75.0271400967
 10
370.1918696079
 20
-78.763337577
 10
369.7636811579
 20
-82.5762853712
 10
369.1660389881
 20
-86.4544036823
 10
368.400758118
 20
-90.3859147924
 10
367.4701626806
 20
-94.3588788315
 10
366.3770788636
 20
-98.3612300383
 10
365.1248263265
 20
-102.3808134039
 10
363.7172081193
 20
-106.4054215855
 10
362.1584991322
 20
-110.4228319805
 10
360.453433113
 20
-114.4208438455
 10
358.6071882913
 20
-118.3873153499
 10
356.6253716519
 20
-122.3102004501
 10
354.5140019068
 20
-126.177585473
 10
352.2794912166
 20
-129.9777252973
 10
349.9286257167
 20
-133.6990790234
 10
347.4685449084
 20
-137.3303450222
 10
344.9067199763
 20
-140.8604952583
 10
342.2509310985
 20
-144.2788087814
 10
339.5092438185
 20
-147.5749042857
 10
336.6899845505
 20
-150.7387716375
 10
333.8017152923
 20
-153.7608022757
 10
330.8532076225
 20
-156.6318183924
 10
327.8534160622
 20
-159.3431008062
 10
324.8114508797
 20
-161.8864154414
 10
321.7365504233
 20
-164.2540383351
 10
318.6380530646
 20
-166.4387790944
 10
315.5253688382
 20
-168.4340027333
 10
312.4079508639
 20
-170.2336498233
 10
309.2952666375
 20
-171.8322548954
 10
306.1967692788
 20
-173.2249630384
 10
303.1218688223
 20
-174.4075446434
 10
300.0799036398
 20
-175.3764082491
 10
297.0801120795
 20
-176.1286114485
 10
294.1316044098
 20
-176.6618698252
 10
291.2433351515
 20
-176.974563891
 10
288.4240758835
 20
-177.0657440044
 10
285.6823886036
 20
-176.9351332543
 10
283.0265997258
 20
-176.5831283013
 10
280.4647747937
 20
-176.0107981728
 10
278.0046939854
 20
-175.2198810167
 10
275.6538284855
 20
-174.2127788224
 10
273.4193177952
 20
-172.9925501261
 10
271.3079480502
 20
-171.5629007222
 10
269.3261314108
 20
-169.9281724091
 10
267.4798865891
 20
-168.0933298028
 10
265.7748205699
 20
-166.0639452601
 10
264.2161115827
 20
-163.8461819551
 10
262.8084933755
 20
-161.4467751621
 10
261.5562408385
 20
-158.8730118007
 10
260.4631570215
 20
-156.1327083056
 10
259.532561584
 20
-153.2341868884
 10
258.767280714
 20
-150.1862502635
 10
258.1696385442
 20
-146.9981549141
 10
257.7414500942
 20
-143.6795829811
 10
257.4840157583
 20
-140.2406128584
 10
257.3981173561
 20
-136.6916885852
  0
LWPOLYLINE
  5
BA
330
1F
100
AcDbEntity
  8
0
  6
Continuous
 62
     7
370
    25
100
AcDbPolyline
 90
      108
 70
   128
 43
0.0
 10
264.1156317774
 20
-132.813750054
 10
264.2015551879
 20
-129.3857287156
 10
264.4590292236
 20
-125.8703194187
 10
264.8871663181
 20
-122.2796405076
 10
265.4844905942
 20
-118.6260697962
 10
266.2489429514
 20
-114.9222018996
 10
267.177888164
 20
-111.1808048179
 10
268.2681239654
 20
-107.4147759219
 10
269.515892087
 20
-103.6370974932
 10
270.9168912136
 20
-99.860791972
 10
272.466291811
 20
-96.0988770659
 10
274.1587527742
 20
-92.3643208747
 10
275.9884398398
 20
-88.6699971874
 10
277.9490456974
 20
-85.0286411029
 10
280.0338117325
 20
-81.4528051302
 10
282.2355513246
 20
-77.9548159164
 10
284.5466746212
 20
-74.5467317552
 10
286.9592147017
 20
-71.2403010187
 10
289.4648550404
 20
-68.0469216585
 10
292.0549581762
 20
-64.9776019148
 10
294.7205954869
 20
-62.0429223688
 10
297.4525779685
 20
-59.2529994686
 10
300.2414879115
 20
-56.6174506565
 10
303.0777113654
 20
-54.1453612153
 10
305.9514712806
 20
-51.8452529493
 10
308.8528612112
 20
-49.7250548083
 10
311.771879465
 20
-47.7920755545
 10
314.6984635816
 20
-46.0529785678
 10
317.6225250191
 20
-44.5137588758
 10
320.533983932
 20
-43.1797224876
 10
323.4228039183
 20
-42.055468103
 10
326.279026617
 20
-41.1448712598
 10
329.0928060369
 20
-40.451070974
 10
331.8544424973
 20
-39.9764589189
 10
334.5544160652
 20
-39.7226711804
 10
337.1834193725
 20
-39.6905826177
 10
339.7323897001
 20
-39.8803038465
 10
342.1925402193
 20
-40.2911808585
 10
344.5553902815
 20
-40.9217972755
 10
346.8127946531
 20
-41.7699792321
 10
348.9569715936
 20
-42.8328028693
 10
350.9805296809
 20
-44.106604414
 10
352.876493291
 20
-45.5869928083
 10
354.6383266446
 20
-47.2688648467
 10
356.2599563372
 20
-49.146422768
 10
357.7357922753
 20
-51.2131942409
 10
359.0607469466
 20
-53.4620546761
 10
360.2302529579
 20
-55.8852517857
 10
361.2402787798
 20
-58.4744323074
 10
362.0873426439
 20
-61.2206707995
 10
362.7685245457
 20
-64.114500409
 10
363.2814763101
 20
-67.1459455058
 10
363.6244296859
 20
-70.3045560705
 10
363.796202442
 20
-73.5794437183
 10
363.796202442
 20
-76.959319233
 10
363.6244296859
 20
-80.4325314835
 10
363.2814763101
 20
-83.9871075877
 10
362.7685245457
 20
-87.6107941853
 10
362.0873426439
 20
-91.291099678
 10
361.2402787798
 20
-95.0153372904
 10
360.2302529579
 20
-98.7706688038
 10
359.0607469466
 20
-102.5441488125
 10
357.7357922753
 20
-106.3227693494
 10
356.2599563372
 20
-110.0935047265
 10
354.6383266446
 20
-113.8433564379
 10
352.876493291
 20
-117.5593979679
 10
350.9805296809
 20
-121.2288193515
 10
348.9569715936
 20
-124.8389713332
 10
346.8127946531
 20
-128.377408971
 10
344.5553902815
 20
-131.8319345375
 10
342.1925402193
 20
-135.1906395673
 10
339.7323897001
 20
-138.4419459085
 10
337.1834193725
 20
-141.5746456345
 10
334.5544160652
 20
-144.5779396804
 10
331.8544424973
 20
-147.4414750694
 10
329.0928060369
 20
-150.1553806019
 10
326.279026617
 20
-152.7103008833
 10
323.4228039183
 20
-155.0974285741
 10
320.533983932
 20
-157.3085347505
 10
317.6225250191
 20
-159.3359972716
 10
314.6984635816
 20
-161.1728270541
 10
311.771879465
 20
-162.8126921651
 10
308.8528612112
 20
-164.24993965
 10
305.9514712806
 20
-165.4796150188
 10
303.0777113654
 20
-166.4974793258
 10
300.2414879115
 20
-167.300023782
 10
297.4525779685
 20
-167.8844818503
 10
294.7205954869
 20
-168.2488387826
 10
292.0549581762
 20
-168.3918385652
 10
289.4648550404
 20
-168.3129882482
 10
286.9592147017
 20
-168.012559645
 10
284.5466746212
 20
-167.4915883951
 10
282.2355513246
 20
-166.7518703945
 10
280.0338117325
 20
-165.7959556042
 10
277.9490456974
 20
-164.6271392607
 10
275.9884398398
 20
-163.2494505159
 10
274.1587527742
 20
-161.6676385484
 10
272.466291811
 20
-159.8871561918
 10
270.9168912136
 20
-157.9141411375
 10
269.515892087
 20
-155.7553947772
 10
268.2681239654
 20
-153.4183587568
 10
267.177888164
 20
-150.9110893236
 10
266.2489429514
 20
-148.2422295548
 10
265.4844905942
 20
-145.4209795628
 10
264.8871663181
 20
-142.4570647809
 10
264.4590292236
 20
-139.3607024372
 10
264.2015551879
 20
-136.1425663344
 10
264.1156317774
 20
-132.813750054
  0
LWPOLYLINE
  5
BB
330
1F
100
AcDbEntity
  8
0
  6
Continuous
 62
     7
370
    25
100
AcDbPolyline
 90
       59
 70
   128
 43
0.0
 10
457.9081059909
 20
-94.7574513408
 10
458.4586987412
 20
-95.0841743175
 10
460.5700684863
 20
-96.5138237213
 10
462.5518851257
 20
-98.1485520345
 10
464.3981299474
 20
-99.9833946407
 10
466.1031959666
 20
-102.0127791834
 10
467.6619049538
 20
-104.2305424884
 10
469.069523161
 20
-106.6299492814
 10
470.321775698
 20
-109.2037126428
 10
471.414859515
 20
-111.9440161379
 10
472.3454549525
 20
-114.8425375551
 10
473.1107358225
 20
-117.8904741801
 10
473.7083779923
 20
-121.0785695294
 10
474.1365664423
 20
-124.3971414624
 10
474.3940007782
 20
-127.8361115851
 10
474.4798991804
 20
-131.3850358583
 10
474.3940007782
 20
-135.0331363157
 10
474.1365664423
 20
-138.7693337959
 10
473.7083779923
 20
-142.5822815902
 10
473.1107358225
 20
-146.4603999013
 10
472.3454549525
 20
-150.3919110114
 10
471.414859515
 20
-154.3648750505
 10
470.321775698
 20
-158.3672262573
 10
469.069523161
 20
-162.3868096228
 10
467.6619049538
 20
-166.4114178045
 10
466.1031959666
 20
-170.4288281995
 10
464.3981299474
 20
-174.4268400645
 10
462.5518851257
 20
-178.3933115689
 10
460.5700684863
 20
-182.3161966691
 10
458.4586987412
 20
-186.183581692
 10
456.224188051
 20
-189.9837215163
 10
453.8733225511
 20
-193.7050752424
 10
451.4132417428
 20
-197.3363412412
 10
448.8514168107
 20
-200.8664914773
 10
446.1956279329
 20
-204.2848050004
 10
443.4539406529
 20
-207.5809005047
 10
440.634681385
 20
-210.7447678565
 10
437.7464121267
 20
-213.7667984947
 10
434.797904457
 20
-216.6378146114
 10
431.7981128967
 20
-219.3490970252
 10
428.7561477142
 20
-221.8924116604
 10
425.6812472577
 20
-224.2600345541
 10
422.582749899
 20
-226.4447753133
 10
419.4700656726
 20
-228.4399989523
 10
416.3526476983
 20
-230.2396460423
 10
413.2399634719
 20
-231.8382511143
 10
410.1414661132
 20
-233.2309592573
 10
407.0665656568
 20
-234.4135408624
 10
404.0246004742
 20
-235.3824044681
 10
401.0248089139
 20
-236.1346076675
 10
398.0763012442
 20
-236.6678660442
 10
395.188031986
 20
-236.98056011
 10
392.368772718
 20
-237.0717402234
 10
389.627085438
 20
-236.9411294733
 10
386.9712965602
 20
-236.5891245203
 10
384.4094716281
 20
-236.0167943918
 10
381.9493908198
 20
-235.2258772357
 10
379.5985253199
 20
-234.2187750414
 10
377.91460738
 20
-233.3252693217
  0
LWPOLYLINE
  5
BC
330
1F
100
AcDbEntity
  8
0
  6
Continuous
 62
     7
370
    25
100
AcDbPolyline
 90
       67
 70
   128
 43
0.0
 10
497.7771072003
 20
-87.7519350435
 10
499.9583894574
 20
-89.1193514587
 10
502.3271628754
 20
-90.874127165
 10
504.5635792278
 20
-92.8328673837
 10
506.6624946852
 20
-94.9910669498
 10
508.619081675
 20
-97.3437619349
 10
510.4288399842
 20
-99.8855410653
 10
512.0876071108
 20
-102.6105581674
 10
513.5915678372
 20
-105.5125456147
 10
514.9372630056
 20
-108.5848287429
 10
516.121597474
 20
-111.8203412025
 10
517.1418472351
 20
-115.2116412112
 10
517.9956656818
 20
-118.7509286701
 10
518.6810890043
 20
-122.4300631048
 10
519.196540707
 20
-126.2405823881
 10
519.5408352345
 20
-130.1737222036
 10
519.7131806983
 20
-134.2204362036
 10
519.7131806983
 20
-138.3714168164
 10
519.5408352345
 20
-142.6171166534
 10
519.196540707
 20
-146.947770469
 10
518.6810890043
 20
-151.3534176206
 10
517.9956656818
 20
-155.8239249786
 10
517.1418472351
 20
-160.3490102328
 10
516.121597474
 20
-164.9182655421
 10
514.9372630056
 20
-169.5211814729
 10
513.5915678372
 20
-174.147171171
 10
512.0876071108
 20
-178.7855947119
 10
510.4288399842
 20
-183.4257835729
 10
508.619081675
 20
-188.0570651708
 10
506.6624946852
 20
-192.6687874095
 10
504.5635792278
 20
-197.2503431801
 10
502.3271628754
 20
-201.7911947575
 10
499.9583894574
 20
-206.2808980376
 10
497.4627072285
 20
-210.709126559
 10
494.8458563379
 20
-215.0656952541
 10
492.1138556264
 20
-219.3405838754
 10
489.2729887832
 20
-223.523960042
 10
486.3297898931
 20
-227.6062018547
 10
483.2910284079
 20
-231.5779200265
 10
480.1636935763
 20
-235.4299794783
 10
476.9549783688
 20
-239.15352035
 10
473.672262933
 20
-242.7399783782
 10
470.3230976197
 20
-246.1811045945
 10
466.9151856164
 20
-249.4689842984
 10
463.45636523
 20
-252.5960552611
 10
459.9545918581
 20
-255.5551251194
 10
456.4179196918
 20
-258.3393879175
 10
452.8544831904
 20
-260.942439762
 10
449.272478372
 20
-263.3582935501
 10
445.6801439624
 20
-265.5813927407
 10
442.085742446
 20
-267.6066241344
 10
438.4975410614
 20
-269.4293296342
 10
434.9237927868
 20
-271.045316959
 10
431.3727173577
 20
-272.450869286
 10
427.8524823614
 20
-273.6427538
 10
424.3711844513
 20
-274.6182291284
 10
420.936830724
 20
-275.3750516466
 10
417.5573203032
 20
-275.9114806387
 10
414.2404261712
 20
-276.2262823006
 10
410.9937772907
 20
-276.3187325786
 10
407.8248410583
 20
-276.188618834
 10
404.7409061287
 20
-275.8362403327
 10
401.7490656513
 20
-275.2624075563
 10
398.8562009549
 20
-274.4684403388
 10
396.068965721
 20
-273.4561648302
 10
393.39377068
 20
-272.2279092965
 10
391.7857215408
 20
-271.3542938682
  0
LWPOLYLINE
  5
BD
330
1F
100
AcDbEntity
  8
0
  6
Continuous
 62
     7
370
    25
100
AcDbPolyline
 90
       97
 70
   128
 43
0.0
 10
437.2767388215
 20
-82.8472165904
 10
440.126561129
 20
-81.4951492863
 10
443.6899976305
 20
-79.9839449206
 10
447.2266697968
 20
-78.6848529523
 10
450.7284431686
 20
-77.6008613343
 10
454.187263555
 20
-76.7344632823
 10
457.5951755583
 20
-76.0876515394
 10
460.9443408716
 20
-75.6619137935
 10
464.2270563074
 20
-75.458229255
 10
467.435771515
 20
-75.4770664049
 10
470.5631063466
 20
-75.718381917
 10
473.6018678318
 20
-76.181620758
 10
476.5450667219
 20
-76.8657174638
 10
479.385933565
 20
-77.7690985899
 10
482.1179342765
 20
-78.8896863309
 10
484.7347851672
 20
-80.2249032989
 10
487.2304673961
 20
-81.7716784523
 10
489.5992408141
 20
-83.5264541586
 10
491.8356571664
 20
-85.4851943773
 10
493.9345726239
 20
-87.6433939434
 10
495.8911596136
 20
-89.9960889285
 10
497.7009179228
 20
-92.5378680589
 10
499.3596850494
 20
-95.262885161
 10
500.8636457759
 20
-98.1648726083
 10
502.2093409443
 20
-101.2371557365
 10
503.3936754127
 20
-104.4726681961
 10
504.4139251738
 20
-107.8639682048
 10
505.2677436205
 20
-111.4032556637
 10
505.953166943
 20
-115.0823900984
 10
506.4686186457
 20
-118.8929093817
 10
506.8129131731
 20
-122.8260491972
 10
506.9852586369
 20
-126.8727631972
 10
506.9852586369
 20
-131.02374381
 10
506.8129131731
 20
-135.269443647
 10
506.4686186457
 20
-139.6000974626
 10
505.953166943
 20
-144.0057446142
 10
505.2677436205
 20
-148.4762519722
 10
504.4139251738
 20
-153.0013372264
 10
503.3936754126
 20
-157.5705925357
 10
502.2093409443
 20
-162.1735084665
 10
500.8636457759
 20
-166.7994981646
 10
499.3596850494
 20
-171.4379217055
 10
497.7009179228
 20
-176.0781105665
 10
495.8911596136
 20
-180.7093921643
 10
493.9345726239
 20
-185.3211144031
 10
491.8356571664
 20
-189.9026701737
 10
489.5992408141
 20
-194.4435217511
 10
487.2304673961
 20
-198.9332250312
 10
484.7347851672
 20
-203.3614535526
 10
482.1179342765
 20
-207.7180222477
 10
479.385933565
 20
-211.992910869
 10
476.5450667219
 20
-216.1762870356
 10
473.6018678318
 20
-220.2585288483
 10
470.5631063465
 20
-224.2302470201
 10
467.435771515
 20
-228.0823064719
 10
464.2270563074
 20
-231.8058473436
 10
460.9443408716
 20
-235.3923053718
 10
457.5951755583
 20
-238.8334315881
 10
454.187263555
 20
-242.121311292
 10
450.7284431686
 20
-245.2483822547
 10
447.2266697968
 20
-248.2074521129
 10
443.6899976305
 20
-250.9917149111
 10
440.126561129
 20
-253.5947667556
 10
436.5445563106
 20
-256.0106205437
 10
432.952221901
 20
-258.2337197343
 10
429.3578203846
 20
-260.258951128
 10
425.769619
 20
-262.0816566278
 10
422.1958707254
 20
-263.6976439525
 10
418.6447952963
 20
-265.1031962796
 10
415.1245603001
 20
-266.2950807936
 10
411.6432623899
 20
-267.270556122
 10
408.2089086626
 20
-268.0273786402
 10
404.8293982418
 20
-268.5638076323
 10
401.5125041098
 20
-268.8786092942
 10
398.2658552294
 20
-268.9710595722
 10
395.0969189969
 20
-268.8409458276
 10
392.0129840674
 20
-268.4885673263
 10
389.0211435899
 20
-267.9147345499
 10
386.1282788935
 20
-267.1207673324
 10
383.3410436596
 20
-266.1084918237
 10
380.6658486187
 20
-264.8802362901
 10
378.1088468049
 20
-263.4388257585
 10
375.6759194046
 20
-261.7875755193
 10
373.3726622285
 20
-259.9302835011
 10
371.2043728421
 20
-257.871221535
 10
369.1760383803
 20
-255.6151255295
 10
367.2923240776
 20
-253.1671845778
 10
365.5575625371
 20
-250.5330290223
 10
363.9757437659
 20
-247.7187175055
 10
362.550505998
 20
-244.7307230338
 10
361.2851273259
 20
-241.5759180904
 10
360.182518161
 20
-238.2615588277
 10
359.2452145398
 20
-234.7952683782
 10
358.4753722906
 20
-231.1850193211
 10
357.8747620753
 20
-227.4391153448
 10
357.4447653167
 20
-223.5661721486
 10
357.2832402107
 20
-221.4150345713
  0
LWPOLYLINE
  5
BE
330
1F
100
AcDbEntity
  8
0
  6
Continuous
 62
     7
370
    25
100
AcDbPolyline
 90
       72
 70
   128
 43
0.0
 10
462.6308317274
 20
-92.441096587
 10
463.9276254367
 20
-92.5679864427
 10
466.6818745398
 20
-93.0058374313
 10
469.3396081308
 20
-93.6644319213
 10
471.8934186295
 20
-94.5419342917
 10
474.336188108
 20
-95.6358987861
 10
476.6611081295
 20
-96.9432763292
 10
478.8616987251
 20
-98.4604230252
 10
480.9318264541
 20
-100.1831103143
 10
482.8657214991
 20
-102.1065367579
 10
484.6579937478
 20
-104.2253414217
 10
486.303647816
 20
-106.5336188169
 10
487.7980969707
 20
-109.0249353605
 10
489.137175914
 20
-111.6923473065
 10
490.3171523928
 20
-114.5284200992
 10
491.3347376009
 20
-117.5252490953
 10
492.1870953459
 20
-120.6744815946
 10
492.8718499539
 20
-123.9673401216
 10
493.3870928908
 20
-127.3946468888
 10
493.7313880824
 20
-130.9468493775
 10
493.9037759161
 20
-134.6140469624
 10
493.9037759161
 20
-138.386018506
 10
493.7313880824
 20
-142.2522508471
 10
493.3870928908
 20
-146.2019681027
 10
492.8718499539
 20
-150.2241617024
 10
492.1870953459
 20
-154.3076210712
 10
491.3347376009
 20
-158.4409648756
 10
490.3171523928
 20
-162.6126727449
 10
489.137175914
 20
-166.8111173811
 10
487.7980969707
 20
-171.0245969661
 10
486.303647816
 20
-175.2413677764
 10
484.6579937478
 20
-179.4496769155
 10
482.8657214991
 20
-183.637795071
 10
480.9318264541
 20
-187.7940492066
 10
478.8616987251
 20
-191.9068550963
 10
476.6611081295
 20
-195.9647496127
 10
474.336188108
 20
-199.9564226759
 10
471.8934186295
 20
-203.870748777
 10
469.3396081308
 20
-207.6968179872
 10
466.6818745398
 20
-211.4239663653
 10
463.9276254367
 20
-215.0418056805
 10
461.0845374077
 20
-218.5402523655
 10
458.1605346492
 20
-221.909555622
 10
455.1637668811
 20
-225.1403245975
 10
452.1025866328
 20
-228.2235545595
 10
448.9855259627
 20
-231.150651993
 10
445.8212726779
 20
-233.9134585524
 10
442.6186461199
 20
-236.5042738005
 10
439.3865725832
 20
-238.9158766703
 10
436.1340604366
 20
-241.1415455922
 10
432.8701750148
 20
-243.1750772277
 10
429.6040133518
 20
-245.0108037594
 10
426.344678826
 20
-246.6436086882
 10
423.1012557872
 20
-248.0689410939
 10
419.8827842373
 20
-249.2828283194
 10
416.6982346337
 20
-250.2818870433
 10
413.5564828873
 20
-251.0633327099
 10
410.4662856237
 20
-251.6249872898
 10
407.436255777
 20
-251.9652853509
 10
404.4748385838
 20
-252.0832784217
 10
401.5902880449
 20
-251.9786376341
 10
398.7906439201
 20
-251.6516546409
 10
396.0837093197
 20
-251.1032408024
 10
393.4770289559
 20
-250.3349246461
 10
390.9778681144
 20
-249.3488476072
 10
388.5931924047
 20
-248.147758059
 10
386.3296483458
 20
-246.7350036537
 10
384.1935448409
 20
-245.1145219911
 10
382.1908355936
 20
-243.2908296443
 10
380.3271025138
 20
-241.269009571
 10
378.6075401599
 20
-239.0546969463
 10
378.2704406653
 20
-238.5734137939
  0
ENDSEC
  0
SECTION
  2
OBJECTS
  0
DICTIONARY
  5
C
330
0
100
AcDbDictionary
281
     1
  3
ACAD_GROUP
350
D
  3
ACAD_LAYOUT
350
1A
  3
ACAD_MLINESTYLE
350
17
  3
ACAD_PLOTSETTINGS
350
19
  3
ACAD_PLOTSTYLENAME
350
E
  3
ACAD_SCALELIST
350
47
  0
DICTIONARY
  5
D
102
{ACAD_REACTORS
330
C
102
}
330
C
100
AcDbDictionary
281
     1
  0
DICTIONARY
  5
1A
102
{ACAD_REACTORS
330
C
102
}
330
C
100
AcDbDictionary
281
     1
  3
Layout1
350
1E
  3
Layout2
350
26
  3
Model
350
22
  0
DICTIONARY
  5
17
102
{ACAD_REACTORS
330
C
102
}
330
C
100
AcDbDictionary
281
     1
  3
Standard
350
18
  0
DICTIONARY
  5
19
102
{ACAD_REACTORS
330
C
102
}
330
C
100
AcDbDictionary
281
     1
  0
ACDBDICTIONARYWDFLT
  5
E
102
{ACAD_REACTORS
330
C
102
}
330
C
100
AcDbDictionary
281
     1
  3
Normal
350
F
100
AcDbDictionaryWithDefault
340
F
  0
DICTIONARY
  5
47
102
{ACAD_REACTORS
330
C
102
}
330
C
100
AcDbDictionary
281
     1
  3
A0
350
48
  3
A1
350
49
  3
A2
350
4A
  3
A3
350
4B
  3
A4
350
4C
  3
A5
350
4D
  3
A6
350
4E
  3
A7
350
4F
  3
A8
350
50
  3
A9
350
51
  3
B0
350
52
  3
B1
350
53
  3
B2
350
54
  3
B3
350
55
  3
B4
350
56
  3
B5
350
57
  3
B6
350
58
  3
B7
350
59
  3
B8
350
5A
  3
B9
350
5B
  3
C0
350
5C
  3
C1
350
5D
  3
C2
350
5E
  3
C3
350
5F
  3
C4
350
60
  3
C5
350
61
  3
C6
350
62
  3
C7
350
63
  3
C8
350
64
  3
C9
350
65
  3
D0
350
66
  3
D1
350
67
  3
D2
350
68
  0
LAYOUT
  5
1E
102
{ACAD_REACTORS
330
1A
102
}
330
1A
100
AcDbPlotSettings
  1

  2
none_device
  4

  6

 40
0.0
 41
0.0
 42
0.0
 43
0.0
 44
0.0
 45
0.0
 46
0.0
 47
0.0
 48
0.0
 49
0.0
140
0.0
141
0.0
142
1.0
143
1.0
 70
   688
 72
     1
 73
     0
 74
     5
  7

 75
    16
147
1.0
148
0.0
149
0.0
100
AcDbLayout
  1
Layout1
 70
     1
 71
     1
 10
0.0
 20
0.0
 11
420.0
 21
297.0
 12
0.0
 22
0.0
 32
0.0
 14
1.0000000000E+20
 24
1.0000000000E+20
 34
1.0000000000E+20
 15
-1.0000000000E+20
 25
-1.0000000000E+20
 35
-1.0000000000E+20
146
0.0
 13
0.0
 23
0.0
 33
0.0
 16
1.0
 26
0.0
 36
0.0
 17
0.0
 27
1.0
 37
0.0
 76
     0
330
1B
  0
LAYOUT
  5
26
102
{ACAD_REACTORS
330
1A
102
}
330
1A
100
AcDbPlotSettings
  1

  2
none_device
  4

  6

 40
0.0
 41
0.0
 42
0.0
 43
0.0
 44
0.0
 45
0.0
 46
0.0
 47
0.0
 48
0.0
 49
0.0
140
0.0
141
0.0
142
1.0
143
1.0
 70
   688
 72
     1
 73
     0
 74
     5
  7

 75
    16
147
1.0
148
0.0
149
0.0
100
AcDbLayout
  1
Layout2
 70
     1
 71
     2
 10
0.0
 20
0.0
 11
0.0
 21
0.0
 12
0.0
 22
0.0
 32
0.0
 14
0.0
 24
0.0
 34
0.0
 15
0.0
 25
0.0
 35
0.0
146
0.0
 13
0.0
 23
0.0
 33
0.0
 16
1.0
 26
0.0
 36
0.0
 17
0.0
 27
1.0
 37
0.0
 76
     0
330
23
  0
LAYOUT
  5
22
102
{ACAD_REACTORS
330
1A
102
}
330
1A
100
AcDbPlotSettings
  1

  2
none_device
  4
Letter_(8.50_x_11.00_Inches)
  6

 40
6.35
 41
6.35
 42
6.35000508
 43
6.35000508
 44
215.9
 45
279.4
 46
0.0
 47
0.0
 48
0.0
 49
0.0
140
0.0
141
0.0
142
1.0
143
1.0
 70
  1712
 72
     1
 73
     0
 74
     0
  7

 75
     0
147
1.0
148
0.0
149
0.0
100
AcDbLayout
  1
Model
 70
     1
 71
     0
 10
0.0
 20
0.0
 11
279.4
 21
215.9
 12
0.0
 22
0.0
 32
0.0
 14
0.0
 24
0.0
 34
0.0
 15
279.4
 25
215.9
 35
0.0
146
0.0
 13
0.0
 23
0.0
 33
0.0
 16
1.0
 26
0.0
 36
0.0
 17
0.0
 27
1.0
 37
0.0
 76
     0
330
1F
331
29
  0
MLINESTYLE
  5
18
102
{ACAD_REACTORS
330
17
102
}
330
17
100
AcDbMlineStyle
  2
Standard
 70
     0
  3

 62
   256
 51
90.0
 52
90.0
 71
     2
 49
0.5
 62
   256
  6
BYLAYER
 49
-0.5
 62
   256
  6
BYLAYER
  0
ACDBPLACEHOLDER
  5
F
102
{ACAD_REACTORS
330
E
102
}
330
E
  0
SCALE
  5
48
102
{ACAD_REACTORS
330
47
102
}
330
47
100
AcDbScale
 70
     0
300
1:1
140
1.0
141
1.0
290
     1
  0
SCALE
  5
49
102
{ACAD_REACTORS
330
47
102
}
330
47
100
AcDbScale
 70
     0
300
1:2
140
1.0
141
2.0
290
     0
  0
SCALE
  5
4A
102
{ACAD_REACTORS
330
47
102
}
330
47
100
AcDbScale
 70
     0
300
1:4
140
1.0
141
4.0
290
     0
  0
SCALE
  5
4B
102
{ACAD_REACTORS
330
47
102
}
330
47
100
AcDbScale
 70
     0
300
1:5
140
1.0
141
5.0
290
     0
  0
SCALE
  5
4C
102
{ACAD_REACTORS
330
47
102
}
330
47
100
AcDbScale
 70
     0
300
1:8
140
1.0
141
8.0
290
     0
  0
SCALE
  5
4D
102
{ACAD_REACTORS
330
47
102
}
330
47
100
AcDbScale
 70
     0
300
1:10
140
1.0
141
10.0
290
     0
  0
SCALE
  5
4E
102
{ACAD_REACTORS
330
47
102
}
330
47
100
AcDbScale
 70
     0
300
1:16
140
1.0
141
16.0
290
     0
  0
SCALE
  5
4F
102
{ACAD_REACTORS
330
47
102
}
330
47
100
AcDbScale
 70
     0
300
1:20
140
1.0
141
20.0
290
     0
  0
SCALE
  5
50
102
{ACAD_REACTORS
330
47
102
}
330
47
100
AcDbScale
 70
     0
300
1:30
140
1.0
141
30.0
290
     0
  0
SCALE
  5
51
102
{ACAD_REACTORS
330
47
102
}
330
47
100
AcDbScale
 70
     0
300
1:40
140
1.0
141
40.0
290
     0
  0
SCALE
  5
52
102
{ACAD_REACTORS
330
47
102
}
330
47
100
AcDbScale
 70
     0
300
1:50
140
1.0
141
50.0
290
     0
  0
SCALE
  5
53
102
{ACAD_REACTORS
330
47
102
}
330
47
100
AcDbScale
 70
     0
300
1:100
140
1.0
141
100.0
290
     0
  0
SCALE
  5
54
102
{ACAD_REACTORS
330
47
102
}
330
47
100
AcDbScale
 70
     0
300
2:1
140
2.0
141
1.0
290
     0
  0
SCALE
  5
55
102
{ACAD_REACTORS
330
47
102
}
330
47
100
AcDbScale
 70
     0
300
4:1
140
4.0
141
1.0
290
     0
  0
SCALE
  5
56
102
{ACAD_REACTORS
330
47
102
}
330
47
100
AcDbScale
 70
     0
300
8:1
140
8.0
141
1.0
290
     0
  0
SCALE
  5
57
102
{ACAD_REACTORS
330
47
102
}
330
47
100
AcDbScale
 70
     0
300
10:1
140
10.0
141
1.0
290
     0
  0
SCALE
  5
58
102
{ACAD_REACTORS
330
47
102
}
330
47
100
AcDbScale
 70
     0
300
100:1
140
100.0
141
1.0
290
     0
  0
SCALE
  5
59
102
{ACAD_REACTORS
330
47
102
}
330
47
100
AcDbScale
 70
     0
300
1/128" = 1'-0"
140
0.0078125
141
12.0
290
     0
  0
SCALE
  5
5A
102
{ACAD_REACTORS
330
47
102
}
330
47
100
AcDbScale
 70
     0
300
1/64" = 1'-0"
140
0.015625
141
12.0
290
     0
  0
SCALE
  5
5B
102
{ACAD_REACTORS
330
47
102
}
330
47
100
AcDbScale
 70
     0
300
1/32" = 1'-0"
140
0.03125
141
12.0
290
     0
  0
SCALE
  5
5C
102
{ACAD_REACTORS
330
47
102
}
330
47
100
AcDbScale
 70
     0
300
1/16" = 1'-0"
140
0.0625
141
12.0
290
     0
  0
SCALE
  5
5D
102
{ACAD_REACTORS
330
47
102
}
330
47
100
AcDbScale
 70
     0
300
3/32" = 1'-0"
140
0.09375
141
12.0
290
     0
  0
SCALE
  5
5E
102
{ACAD_REACTORS
330
47
102
}
330
47
100
AcDbScale
 70
     0
300
1/8" = 1'-0"
140
0.125
141
12.0
290
     0
  0
SCALE
  5
5F
102
{ACAD_REACTORS
330
47
102
}
330
47
100
AcDbScale
 70
     0
300
3/16" = 1'-0"
140
0.1875
141
12.0
290
     0
  0
SCALE
  5
60
102
{ACAD_REACTORS
330
47
102
}
330
47
100
AcDbScale
 70
     0
300
1/4" = 1'-0"
140
0.25
141
12.0
290
     0
  0
SCALE
  5
61
102
{ACAD_REACTORS
330
47
102
}
330
47
100
AcDbScale
 70
     0
300
3/8" = 1'-0"
140
0.375
141
12.0
290
     0
  0
SCALE
  5
62
102
{ACAD_REACTORS
330
47
102
}
330
47
100
AcDbScale
 70
     0
300
1/2" = 1'-0"
140
0.5
141
12.0
290
     0
  0
SCALE
  5
63
102
{ACAD_REACTORS
330
47
102
}
330
47
100
AcDbScale
 70
     0
300
3/4" = 1'-0"
140
0.75
141
12.0
290
     0
  0
SCALE
  5
64
102
{ACAD_REACTORS
330
47
102
}
330
47
100
AcDbScale
 70
     0
300
1" = 1'-0"
140
1.0
141
12.0
290
     0
  0
SCALE
  5
65
102
{ACAD_REACTORS
330
47
102
}
330
47
100
AcDbScale
 70
     0
300
1-1/2" = 1'-0"
140
1.5
141
12.0
290
     0
  0
SCALE
  5
66
102
{ACAD_REACTORS
330
47
102
}
330
47
100
AcDbScale
 70
     0
300
3" = 1'-0"
140
3.0
141
12.0
290
     0
  0
SCALE
  5
67
102
{ACAD_REACTORS
330
47
102
}
330
47
100
AcDbScale
 70
     0
300
6" = 1'-0"
140
6.0
141
12.0
290
     0
  0
SCALE
  5
68
102
{ACAD_REACTORS
330
47
102
}
330
47
100
AcDbScale
 70
     0
300
1'-0" = 1'-0"
140
12.0
141
12.0
290
     0
  0
ENDSEC
  0
EOF
